ISO-10303-21;
HEADER;
FILE_DESCRIPTION((''),'2;1');
FILE_NAME('1M231-01-00','2021-07-29T',('rd-31'),(''),
'PRO/ENGINEER BY PARAMETRIC TECHNOLOGY CORPORATION, 2011080',
'PRO/ENGINEER BY PARAMETRIC TECHNOLOGY CORPORATION, 2011080','');
FILE_SCHEMA(('CONFIG_CONTROL_DESIGN'));
ENDSEC;
DATA;
#2=CARTESIAN_POINT('',(0.E0,-5.E-1,0.E0));
#3=DIRECTION('',(0.E0,1.E0,0.E0));
#4=DIRECTION('',(1.E0,0.E0,0.E0));
#5=AXIS2_PLACEMENT_3D('',#2,#3,#4);
#7=DIRECTION('',(0.E0,1.E0,0.E0));
#8=VECTOR('',#7,4.E0);
#9=CARTESIAN_POINT('',(2.55E1,-5.E-1,0.E0));
#10=LINE('',#9,#8);
#11=CARTESIAN_POINT('',(0.E0,-5.E-1,0.E0));
#12=DIRECTION('',(0.E0,-1.E0,0.E0));
#13=DIRECTION('',(1.E0,0.E0,0.E0));
#14=AXIS2_PLACEMENT_3D('',#11,#12,#13);
#16=DIRECTION('',(0.E0,1.E0,0.E0));
#17=VECTOR('',#16,4.E0);
#18=CARTESIAN_POINT('',(-2.55E1,-5.E-1,0.E0));
#19=LINE('',#18,#17);
#20=CARTESIAN_POINT('',(0.E0,-5.E-1,0.E0));
#21=DIRECTION('',(0.E0,1.E0,0.E0));
#22=DIRECTION('',(1.E0,0.E0,0.E0));
#23=AXIS2_PLACEMENT_3D('',#20,#21,#22);
#25=CARTESIAN_POINT('',(0.E0,-5.E-1,0.E0));
#26=DIRECTION('',(0.E0,-1.E0,0.E0));
#27=DIRECTION('',(1.E0,0.E0,0.E0));
#28=AXIS2_PLACEMENT_3D('',#25,#26,#27);
#30=CARTESIAN_POINT('',(0.E0,3.5E0,0.E0));
#31=DIRECTION('',(0.E0,1.E0,0.E0));
#32=DIRECTION('',(1.E0,0.E0,0.E0));
#33=AXIS2_PLACEMENT_3D('',#30,#31,#32);
#35=DIRECTION('',(0.E0,-1.E0,0.E0));
#36=VECTOR('',#35,4.E0);
#37=CARTESIAN_POINT('',(2.5E1,3.5E0,0.E0));
#38=LINE('',#37,#36);
#39=CARTESIAN_POINT('',(0.E0,3.5E0,0.E0));
#40=DIRECTION('',(0.E0,-1.E0,0.E0));
#41=DIRECTION('',(1.E0,0.E0,0.E0));
#42=AXIS2_PLACEMENT_3D('',#39,#40,#41);
#44=DIRECTION('',(0.E0,-1.E0,0.E0));
#45=VECTOR('',#44,4.E0);
#46=CARTESIAN_POINT('',(-2.5E1,3.5E0,0.E0));
#47=LINE('',#46,#45);
#48=CARTESIAN_POINT('',(2.35E1,3.5E0,0.E0));
#49=DIRECTION('',(0.E0,0.E0,-1.E0));
#50=DIRECTION('',(0.E0,1.E0,0.E0));
#51=AXIS2_PLACEMENT_3D('',#48,#49,#50);
#53=CARTESIAN_POINT('',(0.E0,5.E0,0.E0));
#54=DIRECTION('',(0.E0,-1.E0,0.E0));
#55=DIRECTION('',(1.E0,0.E0,0.E0));
#56=AXIS2_PLACEMENT_3D('',#53,#54,#55);
#58=CARTESIAN_POINT('',(-2.35E1,3.5E0,0.E0));
#59=DIRECTION('',(0.E0,0.E0,1.E0));
#60=DIRECTION('',(0.E0,1.E0,0.E0));
#61=AXIS2_PLACEMENT_3D('',#58,#59,#60);
#63=CARTESIAN_POINT('',(0.E0,5.E0,0.E0));
#64=DIRECTION('',(0.E0,1.E0,0.E0));
#65=DIRECTION('',(1.E0,0.E0,0.E0));
#66=AXIS2_PLACEMENT_3D('',#63,#64,#65);
#68=CARTESIAN_POINT('',(-1.6E1,5.E0,0.E0));
#69=DIRECTION('',(0.E0,1.E0,0.E0));
#70=DIRECTION('',(0.E0,0.E0,1.E0));
#71=AXIS2_PLACEMENT_3D('',#68,#69,#70);
#73=CARTESIAN_POINT('',(-1.6E1,5.E0,0.E0));
#74=DIRECTION('',(0.E0,1.E0,0.E0));
#75=DIRECTION('',(0.E0,0.E0,-1.E0));
#76=AXIS2_PLACEMENT_3D('',#73,#74,#75);
#78=DIRECTION('',(0.E0,1.E0,0.E0));
#79=VECTOR('',#78,5.E-1);
#80=CARTESIAN_POINT('',(-1.6E1,5.E0,4.15E0));
#81=LINE('',#80,#79);
#82=CARTESIAN_POINT('',(0.E0,5.5E0,0.E0));
#83=DIRECTION('',(0.E0,-1.E0,0.E0));
#84=DIRECTION('',(1.E0,0.E0,0.E0));
#85=AXIS2_PLACEMENT_3D('',#82,#83,#84);
#87=CARTESIAN_POINT('',(0.E0,5.5E0,0.E0));
#88=DIRECTION('',(0.E0,1.E0,0.E0));
#89=DIRECTION('',(1.E0,0.E0,0.E0));
#90=AXIS2_PLACEMENT_3D('',#87,#88,#89);
#92=CARTESIAN_POINT('',(-1.6E1,5.5E0,0.E0));
#93=DIRECTION('',(0.E0,1.E0,0.E0));
#94=DIRECTION('',(0.E0,0.E0,1.E0));
#95=AXIS2_PLACEMENT_3D('',#92,#93,#94);
#97=CARTESIAN_POINT('',(-1.6E1,5.5E0,0.E0));
#98=DIRECTION('',(0.E0,1.E0,0.E0));
#99=DIRECTION('',(0.E0,0.E0,-1.E0));
#100=AXIS2_PLACEMENT_3D('',#97,#98,#99);
#102=CARTESIAN_POINT('',(2.35E1,3.5E0,0.E0));
#103=DIRECTION('',(0.E0,0.E0,1.E0));
#104=DIRECTION('',(1.E0,0.E0,0.E0));
#105=AXIS2_PLACEMENT_3D('',#102,#103,#104);
#107=CARTESIAN_POINT('',(0.E0,3.5E0,0.E0));
#108=DIRECTION('',(0.E0,-1.E0,0.E0));
#109=DIRECTION('',(1.E0,0.E0,0.E0));
#110=AXIS2_PLACEMENT_3D('',#107,#108,#109);
#112=CARTESIAN_POINT('',(-2.35E1,3.5E0,0.E0));
#113=DIRECTION('',(0.E0,0.E0,-1.E0));
#114=DIRECTION('',(-1.E0,0.E0,0.E0));
#115=AXIS2_PLACEMENT_3D('',#112,#113,#114);
#117=CARTESIAN_POINT('',(0.E0,3.5E0,0.E0));
#118=DIRECTION('',(0.E0,1.E0,0.E0));
#119=DIRECTION('',(1.E0,0.E0,0.E0));
#120=AXIS2_PLACEMENT_3D('',#117,#118,#119);
#122=DIRECTION('',(0.E0,1.E0,0.E0));
#123=VECTOR('',#122,5.E-1);
#124=CARTESIAN_POINT('',(-1.6E1,5.E0,-4.15E0));
#125=LINE('',#124,#123);
#126=CARTESIAN_POINT('',(2.55E1,3.5E0,0.E0));
#127=CARTESIAN_POINT('',(2.35E1,5.5E0,0.E0));
#128=VERTEX_POINT('',#126);
#129=VERTEX_POINT('',#127);
#130=CARTESIAN_POINT('',(2.35E1,5.E0,0.E0));
#131=CARTESIAN_POINT('',(2.5E1,3.5E0,0.E0));
#132=VERTEX_POINT('',#130);
#133=VERTEX_POINT('',#131);
#134=CARTESIAN_POINT('',(-2.55E1,3.5E0,0.E0));
#135=CARTESIAN_POINT('',(-2.35E1,5.5E0,0.E0));
#136=VERTEX_POINT('',#134);
#137=VERTEX_POINT('',#135);
#138=CARTESIAN_POINT('',(-2.35E1,5.E0,0.E0));
#139=CARTESIAN_POINT('',(-2.5E1,3.5E0,0.E0));
#140=VERTEX_POINT('',#138);
#141=VERTEX_POINT('',#139);
#142=CARTESIAN_POINT('',(-1.6E1,5.5E0,4.15E0));
#143=CARTESIAN_POINT('',(-1.6E1,5.5E0,-4.15E0));
#144=VERTEX_POINT('',#142);
#145=VERTEX_POINT('',#143);
#146=CARTESIAN_POINT('',(-1.6E1,5.E0,4.15E0));
#147=CARTESIAN_POINT('',(-1.6E1,5.E0,-4.15E0));
#148=VERTEX_POINT('',#146);
#149=VERTEX_POINT('',#147);
#150=CARTESIAN_POINT('',(2.55E1,-5.E-1,0.E0));
#151=VERTEX_POINT('',#150);
#152=CARTESIAN_POINT('',(2.5E1,-5.E-1,0.E0));
#153=VERTEX_POINT('',#152);
#154=CARTESIAN_POINT('',(-2.55E1,-5.E-1,0.E0));
#155=VERTEX_POINT('',#154);
#156=CARTESIAN_POINT('',(-2.5E1,-5.E-1,0.E0));
#157=VERTEX_POINT('',#156);
#158=CARTESIAN_POINT('',(0.E0,0.E0,0.E0));
#159=DIRECTION('',(0.E0,1.E0,0.E0));
#160=DIRECTION('',(1.E0,0.E0,0.E0));
#161=AXIS2_PLACEMENT_3D('',#158,#159,#160);
#162=CYLINDRICAL_SURFACE('',#161,2.55E1);
#164=ORIENTED_EDGE('',*,*,#163,.T.);
#166=ORIENTED_EDGE('',*,*,#165,.T.);
#168=ORIENTED_EDGE('',*,*,#167,.F.);
#170=ORIENTED_EDGE('',*,*,#169,.F.);
#171=EDGE_LOOP('',(#164,#166,#168,#170));
#172=FACE_OUTER_BOUND('',#171,.F.);
#174=CARTESIAN_POINT('',(0.E0,0.E0,0.E0));
#175=DIRECTION('',(0.E0,1.E0,0.E0));
#176=DIRECTION('',(1.E0,0.E0,0.E0));
#177=AXIS2_PLACEMENT_3D('',#174,#175,#176);
#178=CYLINDRICAL_SURFACE('',#177,2.55E1);
#179=ORIENTED_EDGE('',*,*,#163,.F.);
#181=ORIENTED_EDGE('',*,*,#180,.T.);
#182=ORIENTED_EDGE('',*,*,#167,.T.);
#184=ORIENTED_EDGE('',*,*,#183,.F.);
#185=EDGE_LOOP('',(#179,#181,#182,#184));
#186=FACE_OUTER_BOUND('',#185,.F.);
#188=CARTESIAN_POINT('',(0.E0,-5.E-1,0.E0));
#189=DIRECTION('',(0.E0,1.E0,0.E0));
#190=DIRECTION('',(1.E0,0.E0,0.E0));
#191=AXIS2_PLACEMENT_3D('',#188,#189,#190);
#192=PLANE('',#191);
#193=ORIENTED_EDGE('',*,*,#180,.F.);
#194=ORIENTED_EDGE('',*,*,#169,.T.);
#195=EDGE_LOOP('',(#193,#194));
#196=FACE_OUTER_BOUND('',#195,.F.);
#198=ORIENTED_EDGE('',*,*,#197,.F.);
#200=ORIENTED_EDGE('',*,*,#199,.T.);
#201=EDGE_LOOP('',(#198,#200));
#202=FACE_BOUND('',#201,.F.);
#204=CARTESIAN_POINT('',(0.E0,0.E0,0.E0));
#205=DIRECTION('',(0.E0,1.E0,0.E0));
#206=DIRECTION('',(1.E0,0.E0,0.E0));
#207=AXIS2_PLACEMENT_3D('',#204,#205,#206);
#208=CYLINDRICAL_SURFACE('',#207,2.5E1);
#210=ORIENTED_EDGE('',*,*,#209,.T.);
#211=ORIENTED_EDGE('',*,*,#197,.T.);
#213=ORIENTED_EDGE('',*,*,#212,.F.);
#215=ORIENTED_EDGE('',*,*,#214,.F.);
#216=EDGE_LOOP('',(#210,#211,#213,#215));
#217=FACE_OUTER_BOUND('',#216,.F.);
#219=CARTESIAN_POINT('',(0.E0,0.E0,0.E0));
#220=DIRECTION('',(0.E0,1.E0,0.E0));
#221=DIRECTION('',(1.E0,0.E0,0.E0));
#222=AXIS2_PLACEMENT_3D('',#219,#220,#221);
#223=CYLINDRICAL_SURFACE('',#222,2.5E1);
#224=ORIENTED_EDGE('',*,*,#209,.F.);
#226=ORIENTED_EDGE('',*,*,#225,.T.);
#227=ORIENTED_EDGE('',*,*,#212,.T.);
#228=ORIENTED_EDGE('',*,*,#199,.F.);
#229=EDGE_LOOP('',(#224,#226,#227,#228));
#230=FACE_OUTER_BOUND('',#229,.F.);
#232=CARTESIAN_POINT('',(0.E0,3.5E0,0.E0));
#233=DIRECTION('',(0.E0,1.E0,0.E0));
#234=DIRECTION('',(1.E0,0.E0,0.E0));
#235=AXIS2_PLACEMENT_3D('',#232,#233,#234);
#236=TOROIDAL_SURFACE('',#235,2.35E1,1.5E0);
#238=ORIENTED_EDGE('',*,*,#237,.F.);
#240=ORIENTED_EDGE('',*,*,#239,.T.);
#242=ORIENTED_EDGE('',*,*,#241,.T.);
#243=ORIENTED_EDGE('',*,*,#225,.F.);
#244=EDGE_LOOP('',(#238,#240,#242,#243));
#245=FACE_OUTER_BOUND('',#244,.F.);
#247=CARTESIAN_POINT('',(0.E0,3.5E0,0.E0));
#248=DIRECTION('',(0.E0,1.E0,0.E0));
#249=DIRECTION('',(1.E0,0.E0,0.E0));
#250=AXIS2_PLACEMENT_3D('',#247,#248,#249);
#251=TOROIDAL_SURFACE('',#250,2.35E1,1.5E0);
#252=ORIENTED_EDGE('',*,*,#237,.T.);
#253=ORIENTED_EDGE('',*,*,#214,.T.);
#254=ORIENTED_EDGE('',*,*,#241,.F.);
#256=ORIENTED_EDGE('',*,*,#255,.F.);
#257=EDGE_LOOP('',(#252,#253,#254,#256));
#258=FACE_OUTER_BOUND('',#257,.F.);
#260=CARTESIAN_POINT('',(0.E0,5.E0,0.E0));
#261=DIRECTION('',(0.E0,1.E0,0.E0));
#262=DIRECTION('',(1.E0,0.E0,0.E0));
#263=AXIS2_PLACEMENT_3D('',#260,#261,#262);
#264=PLANE('',#263);
#265=ORIENTED_EDGE('',*,*,#239,.F.);
#266=ORIENTED_EDGE('',*,*,#255,.T.);
#267=EDGE_LOOP('',(#265,#266));
#268=FACE_OUTER_BOUND('',#267,.F.);
#270=ORIENTED_EDGE('',*,*,#269,.F.);
#272=ORIENTED_EDGE('',*,*,#271,.F.);
#273=EDGE_LOOP('',(#270,#272));
#274=FACE_BOUND('',#273,.F.);
#276=CARTESIAN_POINT('',(-1.6E1,-3.54E0,0.E0));
#277=DIRECTION('',(0.E0,1.E0,0.E0));
#278=DIRECTION('',(0.E0,0.E0,1.E0));
#279=AXIS2_PLACEMENT_3D('',#276,#277,#278);
#280=CYLINDRICAL_SURFACE('',#279,4.15E0);
#282=ORIENTED_EDGE('',*,*,#281,.F.);
#284=ORIENTED_EDGE('',*,*,#283,.F.);
#285=ORIENTED_EDGE('',*,*,#269,.T.);
#287=ORIENTED_EDGE('',*,*,#286,.T.);
#288=EDGE_LOOP('',(#282,#284,#285,#287));
#289=FACE_OUTER_BOUND('',#288,.F.);
#291=CARTESIAN_POINT('',(0.E0,5.5E0,0.E0));
#292=DIRECTION('',(0.E0,1.E0,0.E0));
#293=DIRECTION('',(1.E0,0.E0,0.E0));
#294=AXIS2_PLACEMENT_3D('',#291,#292,#293);
#295=PLANE('',#294);
#297=ORIENTED_EDGE('',*,*,#296,.T.);
#299=ORIENTED_EDGE('',*,*,#298,.F.);
#300=EDGE_LOOP('',(#297,#299));
#301=FACE_OUTER_BOUND('',#300,.F.);
#302=ORIENTED_EDGE('',*,*,#281,.T.);
#304=ORIENTED_EDGE('',*,*,#303,.T.);
#305=EDGE_LOOP('',(#302,#304));
#306=FACE_BOUND('',#305,.F.);
#308=CARTESIAN_POINT('',(0.E0,3.5E0,0.E0));
#309=DIRECTION('',(0.E0,1.E0,0.E0));
#310=DIRECTION('',(1.E0,0.E0,0.E0));
#311=AXIS2_PLACEMENT_3D('',#308,#309,#310);
#312=TOROIDAL_SURFACE('',#311,2.35E1,2.E0);
#314=ORIENTED_EDGE('',*,*,#313,.F.);
#315=ORIENTED_EDGE('',*,*,#183,.T.);
#317=ORIENTED_EDGE('',*,*,#316,.T.);
#318=ORIENTED_EDGE('',*,*,#296,.F.);
#319=EDGE_LOOP('',(#314,#315,#317,#318));
#320=FACE_OUTER_BOUND('',#319,.F.);
#322=CARTESIAN_POINT('',(0.E0,3.5E0,0.E0));
#323=DIRECTION('',(0.E0,1.E0,0.E0));
#324=DIRECTION('',(1.E0,0.E0,0.E0));
#325=AXIS2_PLACEMENT_3D('',#322,#323,#324);
#326=TOROIDAL_SURFACE('',#325,2.35E1,2.E0);
#327=ORIENTED_EDGE('',*,*,#313,.T.);
#328=ORIENTED_EDGE('',*,*,#298,.T.);
#329=ORIENTED_EDGE('',*,*,#316,.F.);
#330=ORIENTED_EDGE('',*,*,#165,.F.);
#331=EDGE_LOOP('',(#327,#328,#329,#330));
#332=FACE_OUTER_BOUND('',#331,.F.);
#334=CARTESIAN_POINT('',(-1.6E1,-3.54E0,0.E0));
#335=DIRECTION('',(0.E0,1.E0,0.E0));
#336=DIRECTION('',(0.E0,0.E0,1.E0));
#337=AXIS2_PLACEMENT_3D('',#334,#335,#336);
#338=CYLINDRICAL_SURFACE('',#337,4.15E0);
#339=ORIENTED_EDGE('',*,*,#303,.F.);
#340=ORIENTED_EDGE('',*,*,#286,.F.);
#341=ORIENTED_EDGE('',*,*,#271,.T.);
#342=ORIENTED_EDGE('',*,*,#283,.T.);
#343=EDGE_LOOP('',(#339,#340,#341,#342));
#344=FACE_OUTER_BOUND('',#343,.F.);
#346=CLOSED_SHELL('',(#173,#187,#203,#218,#231,#246,#259,#275,#290,#307,#321,
#333,#345));
#347=MANIFOLD_SOLID_BREP('',#346);
#349=DIMENSIONAL_EXPONENTS(0.E0,0.E0,0.E0,0.E0,0.E0,0.E0,0.E0);
#351=PLANE_ANGLE_MEASURE_WITH_UNIT(PLANE_ANGLE_MEASURE(1.745329251994E-2),#350);
#352=(CONVERSION_BASED_UNIT('DEGREE',#351)NAMED_UNIT(*)PLANE_ANGLE_UNIT());
#354=UNCERTAINTY_MEASURE_WITH_UNIT(LENGTH_MEASURE(7.239578287145E-3),#348,
'closure',
'Maximum model space distance between geometric entities at asserted connectivities');
#357=APPLICATION_CONTEXT(
'CONFIGURATION CONTROLLED 3D DESIGNS OF MECHANICAL PARTS AND ASSEMBLIES');
#358=APPLICATION_PROTOCOL_DEFINITION('international standard',
'config_control_design',1994,#357);
#359=DESIGN_CONTEXT('',#357,'design');
#360=MECHANICAL_CONTEXT('',#357,'mechanical');
#361=PRODUCT('1M231-01-00','1M231-01-00','NOT SPECIFIED',(#360));
#362=PRODUCT_DEFINITION_FORMATION_WITH_SPECIFIED_SOURCE('19','LAST_VERSION',
#361,.MADE.);
#366=PRODUCT_CATEGORY('part','');
#367=PRODUCT_RELATED_PRODUCT_CATEGORY('detail','',(#361));
#368=PRODUCT_CATEGORY_RELATIONSHIP('','',#366,#367);
#369=SECURITY_CLASSIFICATION_LEVEL('unclassified');
#370=SECURITY_CLASSIFICATION('','',#369);
#371=CC_DESIGN_SECURITY_CLASSIFICATION(#370,(#362));
#372=APPROVAL_STATUS('approved');
#373=APPROVAL(#372,'');
#374=CC_DESIGN_APPROVAL(#373,(#370,#362,#363));
#375=CALENDAR_DATE(121,29,7);
#376=COORDINATED_UNIVERSAL_TIME_OFFSET(8,0,.AHEAD.);
#377=LOCAL_TIME(16,4,2.8E1,#376);
#378=DATE_AND_TIME(#375,#377);
#379=APPROVAL_DATE_TIME(#378,#373);
#380=DATE_TIME_ROLE('creation_date');
#381=CC_DESIGN_DATE_AND_TIME_ASSIGNMENT(#378,#380,(#363));
#382=DATE_TIME_ROLE('classification_date');
#383=CC_DESIGN_DATE_AND_TIME_ASSIGNMENT(#378,#382,(#370));
#384=PERSON('UNSPECIFIED','UNSPECIFIED',$,$,$,$);
#385=ORGANIZATION('UNSPECIFIED','UNSPECIFIED','UNSPECIFIED');
#386=PERSON_AND_ORGANIZATION(#384,#385);
#387=APPROVAL_ROLE('approver');
#388=APPROVAL_PERSON_ORGANIZATION(#386,#373,#387);
#389=PERSON_AND_ORGANIZATION_ROLE('creator');
#390=CC_DESIGN_PERSON_AND_ORGANIZATION_ASSIGNMENT(#386,#389,(#362,#363));
#391=PERSON_AND_ORGANIZATION_ROLE('design_supplier');
#392=CC_DESIGN_PERSON_AND_ORGANIZATION_ASSIGNMENT(#386,#391,(#362));
#393=PERSON_AND_ORGANIZATION_ROLE('classification_officer');
#394=CC_DESIGN_PERSON_AND_ORGANIZATION_ASSIGNMENT(#386,#393,(#370));
#395=PERSON_AND_ORGANIZATION_ROLE('design_owner');
#396=CC_DESIGN_PERSON_AND_ORGANIZATION_ASSIGNMENT(#386,#395,(#361));
#6=CIRCLE('',#5,2.55E1);
#15=CIRCLE('',#14,2.55E1);
#24=CIRCLE('',#23,2.5E1);
#29=CIRCLE('',#28,2.5E1);
#34=CIRCLE('',#33,2.5E1);
#43=CIRCLE('',#42,2.5E1);
#52=CIRCLE('',#51,1.5E0);
#57=CIRCLE('',#56,2.35E1);
#62=CIRCLE('',#61,1.5E0);
#67=CIRCLE('',#66,2.35E1);
#72=CIRCLE('',#71,4.15E0);
#77=CIRCLE('',#76,4.15E0);
#86=CIRCLE('',#85,2.35E1);
#91=CIRCLE('',#90,2.35E1);
#96=CIRCLE('',#95,4.15E0);
#101=CIRCLE('',#100,4.15E0);
#106=CIRCLE('',#105,2.E0);
#111=CIRCLE('',#110,2.55E1);
#116=CIRCLE('',#115,2.E0);
#121=CIRCLE('',#120,2.55E1);
#163=EDGE_CURVE('',#151,#128,#10,.T.);
#165=EDGE_CURVE('',#128,#136,#121,.T.);
#167=EDGE_CURVE('',#155,#136,#19,.T.);
#169=EDGE_CURVE('',#151,#155,#6,.T.);
#173=ADVANCED_FACE('',(#172),#162,.T.);
#180=EDGE_CURVE('',#151,#155,#15,.T.);
#183=EDGE_CURVE('',#128,#136,#111,.T.);
#187=ADVANCED_FACE('',(#186),#178,.T.);
#197=EDGE_CURVE('',#153,#157,#24,.T.);
#199=EDGE_CURVE('',#153,#157,#29,.T.);
#203=ADVANCED_FACE('',(#196,#202),#192,.F.);
#209=EDGE_CURVE('',#133,#153,#38,.T.);
#212=EDGE_CURVE('',#141,#157,#47,.T.);
#214=EDGE_CURVE('',#133,#141,#34,.T.);
#218=ADVANCED_FACE('',(#217),#208,.F.);
#225=EDGE_CURVE('',#133,#141,#43,.T.);
#231=ADVANCED_FACE('',(#230),#223,.F.);
#237=EDGE_CURVE('',#132,#133,#52,.T.);
#239=EDGE_CURVE('',#132,#140,#57,.T.);
#241=EDGE_CURVE('',#140,#141,#62,.T.);
#246=ADVANCED_FACE('',(#245),#236,.F.);
#255=EDGE_CURVE('',#132,#140,#67,.T.);
#259=ADVANCED_FACE('',(#258),#251,.F.);
#269=EDGE_CURVE('',#148,#149,#72,.T.);
#271=EDGE_CURVE('',#149,#148,#77,.T.);
#275=ADVANCED_FACE('',(#268,#274),#264,.F.);
#281=EDGE_CURVE('',#144,#145,#96,.T.);
#283=EDGE_CURVE('',#148,#144,#81,.T.);
#286=EDGE_CURVE('',#149,#145,#125,.T.);
#290=ADVANCED_FACE('',(#289),#280,.F.);
#296=EDGE_CURVE('',#129,#137,#86,.T.);
#298=EDGE_CURVE('',#129,#137,#91,.T.);
#303=EDGE_CURVE('',#145,#144,#101,.T.);
#307=ADVANCED_FACE('',(#301,#306),#295,.T.);
#313=EDGE_CURVE('',#128,#129,#106,.T.);
#316=EDGE_CURVE('',#136,#137,#116,.T.);
#321=ADVANCED_FACE('',(#320),#312,.T.);
#333=ADVANCED_FACE('',(#332),#326,.T.);
#345=ADVANCED_FACE('',(#344),#338,.F.);
#348=(LENGTH_UNIT()NAMED_UNIT(*)SI_UNIT(.MILLI.,.METRE.));
#350=(NAMED_UNIT(*)PLANE_ANGLE_UNIT()SI_UNIT($,.RADIAN.));
#353=(NAMED_UNIT(*)SI_UNIT($,.STERADIAN.)SOLID_ANGLE_UNIT());
#355=(GEOMETRIC_REPRESENTATION_CONTEXT(3)GLOBAL_UNCERTAINTY_ASSIGNED_CONTEXT((
#354))GLOBAL_UNIT_ASSIGNED_CONTEXT((#348,#352,#353))REPRESENTATION_CONTEXT
('ID1','3'));
#356=ADVANCED_BREP_SHAPE_REPRESENTATION('',(#347),#355);
#363=PRODUCT_DEFINITION('design','',#362,#359);
#364=PRODUCT_DEFINITION_SHAPE('','SHAPE FOR 1M231-01-00.',#363);
#365=SHAPE_DEFINITION_REPRESENTATION(#364,#356);
ENDSEC;
END-ISO-10303-21;
